123musiq Home

123Musiq Alphabet: W Waqt (1965) Aage Bhi Jane Naa Tuu lyrics

Aage Bhi Jane Naa Tuu Lyrics - Waqt (1965)

Waqt Song: Aage Bhi Jane Naa Tuu
Movie: Waqt - (W)
Year: 1965
Music Director: Nausad

Aage Bhi Jane Naa Tuu Song Lyrics

Title: aage bhi jaane na tuuu
Artist: Asha Bhosle
Album: Vaqt
Tuning: Standard (E A D G B E)

Hi frnds Now with whole para...is nice a Slow track Enjoy it!

E|---------------------3------------------------------------------||
B|-1-----35---3-----5-------5--------3b----------------------||
G|--------------------------------5-------------------------------||
D|----------------------------------------------------------------||
Intro a
E|---------------------------------0------------------------------||
B|-----------------3------1----3-------1------1-----------------||
G|-----0-----1-----------------------------2---------------------||
D|----------------------------------------------------------------||
Intro b 2 Times

E|---0-3-------58---------7-8-7--------3---------5----------||
B|---------------------------------------------------------------||
G|---------------------------------------------------------------||
D|---------------------------------------------------------------||
Aage Bbi jaane naa tu,

E|----0--3-5-----3-5-3---------------------------------------||
B|---------------------5--3-----5---4---3---------------------||
G|----------------------------5---------------------------------||
D|--------------------------------------------------------------||
A|--------------------------------------------------------------||
E|---------------------------------------------------------------||
piche Bhi jaane naa tu



E|---------3----0-3--0------------------------------------------||
B|--1---3---------------3----1-------3----1--------------------||
G|-------------------------------2-------------------------------||
D|---------------------------------------------------------------||
jo Bhi hai bas yehi ek pal hai

Repeat Intros 2 Times


E|-------------------------------------------------------------||
B|-35--5-5---3h5----1-1----------------------------------||
G|------------------------0-----------------------------------||
D|-------------------------------------------------------------||
Anjaani saayo ka,
Raho mein Dera hai,


E|----------------5-5----5--8----5--8-5--5/3-3-3-----------||
B|-35--5-5-5--6---------------------------------------------||
G|---------------------------------------------------------------||
D|---------------------------------------------------------------||
Anadekhi baaho neeeee, hum sab ko Ghera hai



E|-------------------------------------------------------------||
B|-35--5-5---3h5----1-1----------------------------------||
G|------------------------0-----------------------------------||
D|-------------------------------------------------------------||
yeh pal ujaalaa hai,
baakI Andhera hai,


E|----------------5-5----5--8----5--8-5--5/3-3-3---------||
B|-35--5-5-5--6-------------------------------------------||
G|------------------------------------------------------------||
D|------------------------------------------------------------||
yeh pal gavaanaa naaaaa, yeh pal hi tera hai


E|---38--8-8--8-10--8------5-5---5-3-35-------------||
B|-----------------------------------------------------------||
G|----------------------------------------------------------||
D|----------------------------------------------------------||
jene wale soch lo,

E|----78---3-5---3-------------------3----------------||
B|--------------------5-----------3-5---5---------------||
G|---------------------------------------------------------||
yehi vaqt hai kar lo,

E|---------------------------------------------------------||
B|-------35/1-3-----1----------------------------------||
G|---------------2-----------------------------------------||
D|---------------------------------------------------------||
puri Arjzoo

Repeat Intro

Other Lyrics from Waqt

2. Aye Meri Zohra Jabeen

Artist:

Manna Dey /

Music Director:

Ravi

3. Kaun Aaya Ki

/

Music Director:

Ravi

4. Din Hain Bahaar Ke

/

Music Director:

Ravi

5. Aage Bhi Jaane Na Tu

Artist:

Asha Bhonsle /

Music Director:

Ravi Shankar Sharma /

Lyrics:

Sahir Ludhianvi

6. Waqt se din aur raat

Artist:

Mohammad Rafi /

Music Director:

Ravi /

Lyrics:

Sahir Ludyanwi

Sponsor

Top 10