123musiq Home

123Musiq Alphabet: C Chalti Ka Nam Gaadi (1958) Ek Ladki Bheegi Bhaagi Si lyrics

Ek Ladki Bheegi Bhaagi Si Lyrics - Chalti Ka Nam Gaadi (1958)

Chalti Ka Nam Gaadi Song: Ek Ladki Bheegi Bhaagi Si
Movie: Chalti Ka Nam Gaadi - (C)
Year: 1958
Artist: Kishore Kumar
Music Director: S. D. Burman

Ek Ladki Bheegi Bhaagi Si Song Lyrics

......Ek.......ladki...........bheegi............. bhaagi....si
B |--5-7----8-7-8--------7------5----------5-5-------5---------------
G |-----------------9---------7-----4----------------------------------


......Soti...........raaton............mein....... jaagi....si
B |--5-7-8-7----8-----7---------5-----------5-5-----5----------------
G |-----------------9-----7---------4----------------------------------


......Mili.....ek.....ajnabi....se
E |--3-5----7-----7-8-7----7-----------------------------------------


......Koi......aage......na......peeche
B |--7-8----10-10----12----10-10-----------------------------------


......Tum....hi.....kaho
B |--8-7----8--------7-----------------------------------------------
G |---------------9---------------------------------------------------


......Ye......koi......baat....hai....hoon
B |---------5-------5-5-----5-----Em CHORD----------------------
G |--7--------4-------------------------------------------------------


STANZA :-

......Dil......hi.....dil......mein....jali....... jaati....hai
E |-----------------------------------------8-7-----7-----------------
B |--5-7----8----7-5----7-------8-10--------------------------------


......Bigdi..........bigdi..........chali......... aati........hai
B |--------------------------------10-------13-12----12------------
G |--9-11-12----11-9-11----12------------------------------------


......Jhunjhalaati.........hui...........balkhaati ..........hui
E |----------12-10----------12-----10--------------------------------
B |--12-13-------------13--------------13-12-10----------12--------
G |------------------------------------------------------12------------


......Saawan......ki.......bheegi.....raat....mein
B |--12-12-------13----12-10-----8-7-----5--------------------------

Other Lyrics from Chalti Ka Nam Gaadi

1. Ek Ladki Bheegi

/

Music Director:

S.D.Burman

2. Hum The Woh The

Artist:

Asha Bhonsle, Kishore Kumar /

Music Director:

Sachin Dev Burman /

Lyrics:

Majrooh Sultanpuri

3. Babu Samjho Ishare

/

Music Director:

Sachin Dev Burman /

Lyrics:

Majrooh Sultanpuri

4. Haal Kaisa Hai Janab Ka

Artist:

Asha Bhonsle, Kishore Kumar /

Music Director:

Sachin Dev Burman /

Lyrics:

Majrooh Sultanpuri

5. In Hathon Se Sabki

/

Music Director:

S.D.Burman

6. Main Sitaron Ka Tarana

Artist:

Kishore Kumar /

Music Director:

Sachin Dev Burman /

Lyrics:

Majrooh Sultanpuri

8. Ruk Jaao Na Ji

Artist:

Asha Bhonsle /

Music Director:

S.D.Burman /

Lyrics:

Majrooh Sultanpuri

9. Ek Ladki

Artist:

Kailash Kher /

Music Director:

Laxmi Kanth/Pyarelal

10. Ek Ladki Bhigi Bhagi si

Artist:

Kishore Kumar /

Music Director:

Kishore Kumar /

Lyrics:

Kishore Kumar

Sponsor

Top 10